ISO-10303-21;
HEADER;
FILE_DESCRIPTION (( 'STEP AP203' ),
    '1' );
FILE_NAME ('Q-AZHWP-25.4-1053-M.STEP',
    '2020-12-22T09:09:32',
    ( '' ),
    ( '' ),
    'SwSTEP 2.0',
    'SolidWorks 2020',
    '' );
FILE_SCHEMA (( 'CONFIG_CONTROL_DESIGN' ));
ENDSEC;

DATA;
#1 = CC_DESIGN_PERSON_AND_ORGANIZATION_ASSIGNMENT ( #127, #112, ( #138 ) ) ;
#2 = UNCERTAINTY_MEASURE_WITH_UNIT (LENGTH_MEASURE( 1.000000000000000082E-05 ), #124, 'distance_accuracy_value', 'NONE');
#3 = APPROVAL_DATE_TIME ( #29, #56 ) ;
#4 = DIRECTION ( 'NONE',  ( 0.000000000000000000, 0.000000000000000000, 1.000000000000000000 ) ) ;
#5 = DIRECTION ( 'NONE',  ( 0.000000000000000000, 0.000000000000000000, 1.000000000000000000 ) ) ;
#6 = ADVANCED_FACE ( 'NONE', ( #18 ), #105, .F. ) ;
#7 = EDGE_LOOP ( 'NONE', ( #141, #118 ) ) ;
#8 = DIRECTION ( 'NONE',  ( 1.000000000000000000, 0.000000000000000000, 0.000000000000000000 ) ) ;
#9 = COORDINATED_UNIVERSAL_TIME_OFFSET ( 8, 0, .AHEAD. ) ;
#10 = CIRCLE ( 'NONE', #114, 15.00000000000000000 ) ;
#11 = COORDINATED_UNIVERSAL_TIME_OFFSET ( 8, 0, .AHEAD. ) ;
#12 = APPROVAL_STATUS ( 'not_yet_approved' ) ;
#13 = EDGE_CURVE ( 'NONE', #62, #47, #63, .T. ) ;
#14 = AXIS2_PLACEMENT_3D ( 'NONE', #34, #31, #133 ) ;
#15 = CC_DESIGN_SECURITY_CLASSIFICATION ( #59, ( #138 ) ) ;
#16 = DIRECTION ( 'NONE',  ( 0.000000000000000000, 0.000000000000000000, 1.000000000000000000 ) ) ;
#17 = CC_DESIGN_PERSON_AND_ORGANIZATION_ASSIGNMENT ( #51, #161, ( #59 ) ) ;
#18 = FACE_OUTER_BOUND ( 'NONE', #7, .T. ) ;
#19 = MANIFOLD_SOLID_BREP ( 'Ðý×', #122 ) ;
#20 = ORIENTED_EDGE ( 'NONE', *, *, #175, .F. ) ;
#21 = DIRECTION ( 'NONE',  ( 0.000000000000000000, 0.000000000000000000, 1.000000000000000000 ) ) ;
#22 = CC_DESIGN_APPROVAL ( #162, ( #138 ) ) ;
#23 = ORIENTED_EDGE ( 'NONE', *, *, #79, .T. ) ;
#24 = PERSON_AND_ORGANIZATION_ROLE ( 'creator' ) ;
#25 = PERSON_AND_ORGANIZATION ( #45, #84 ) ;
#26 = APPLICATION_PROTOCOL_DEFINITION ( 'international standard', 'config_control_design', 1994, #54 ) ;
#27 = DATE_AND_TIME ( #37, #28 ) ;
#28 = LOCAL_TIME ( 17, 9, 32.00000000000000000, #159 ) ;
#29 = DATE_AND_TIME ( #70, #149 ) ;
#30 = DIRECTION ( 'NONE',  ( -1.000000000000000000, -0.000000000000000000, -0.000000000000000000 ) ) ;
#31 = DIRECTION ( 'NONE',  ( -1.000000000000000000, -0.000000000000000000, -0.000000000000000000 ) ) ;
#32 = ORIENTED_EDGE ( 'NONE', *, *, #13, .F. ) ;
#33 = DESIGN_CONTEXT ( 'detailed design', #54, 'design' ) ;
#34 = CARTESIAN_POINT ( 'NONE',  ( -1.614212418857619014, 0.000000000000000000, 0.000000000000000000 ) ) ;
#35 = LOCAL_TIME ( 17, 9, 32.00000000000000000, #41 ) ;
#36 = ADVANCED_FACE ( 'NONE', ( #81 ), #132, .T. ) ;
#37 = CALENDAR_DATE ( 2020, 22, 12 ) ;
#38 = DATE_AND_TIME ( #39, #115 ) ;
#39 = CALENDAR_DATE ( 2020, 22, 12 ) ;
#40 = PERSON_AND_ORGANIZATION ( #45, #84 ) ;
#41 = COORDINATED_UNIVERSAL_TIME_OFFSET ( 8, 0, .AHEAD. ) ;
#42 = VECTOR ( 'NONE', #97, 1000.000000000000000 ) ;
#43 = CARTESIAN_POINT ( 'NONE',  ( 3.000000000000000000, 1.836970198721029589E-15, -15.00000000000000000 ) ) ;
#44 = ORIENTED_EDGE ( 'NONE', *, *, #153, .T. ) ;
#45 = PERSON ( 'UNSPECIFIED', 'UNSPECIFIED', 'UNSPECIFIED', ('UNSPECIFIED'), ('UNSPECIFIED'), ('UNSPECIFIED') ) ;
#46 = FACE_OUTER_BOUND ( 'NONE', #165, .T. ) ;
#47 = VERTEX_POINT ( 'NONE', #166 ) ;
#48 = ORIENTED_EDGE ( 'NONE', *, *, #104, .T. ) ;
#49 =( NAMED_UNIT ( * ) PLANE_ANGLE_UNIT ( ) SI_UNIT ( $, .RADIAN. ) );
#50 = APPROVAL_PERSON_ORGANIZATION ( #100, #162, #86 ) ;
#51 = PERSON_AND_ORGANIZATION ( #45, #84 ) ;
#52 =( NAMED_UNIT ( * ) SI_UNIT ( $, .STERADIAN. ) SOLID_ANGLE_UNIT ( ) );
#53 = APPROVAL_STATUS ( 'not_yet_approved' ) ;
#54 = APPLICATION_CONTEXT ( 'configuration controlled 3d designs of mechanical parts and assemblies' ) ;
#55 = APPROVAL ( #12, 'UNSPECIFIED' ) ;
#56 = APPROVAL ( #148, 'UNSPECIFIED' ) ;
#57 = PRODUCT_DEFINITION_SHAPE ( 'NONE', 'NONE',  #167 ) ;
#58 = ADVANCED_FACE ( 'NONE', ( #46 ), #108, .F. ) ;
#59 = SECURITY_CLASSIFICATION ( '', '', #171 ) ;
#60 = VERTEX_POINT ( 'NONE', #82 ) ;
#61 = CC_DESIGN_PERSON_AND_ORGANIZATION_ASSIGNMENT ( #71, #123, ( #138 ) ) ;
#62 = VERTEX_POINT ( 'NONE', #157 ) ;
#63 = CIRCLE ( 'NONE', #107, 15.00000000000000000 ) ;
#64 = CARTESIAN_POINT ( 'NONE',  ( 3.000000000000000000, 0.000000000000000000, 0.000000000000000000 ) ) ;
#65 = DIRECTION ( 'NONE',  ( -1.000000000000000000, 0.000000000000000000, -0.000000000000000000 ) ) ;
#66 = DATE_TIME_ROLE ( 'creation_date' ) ;
#67 = AXIS2_PLACEMENT_3D ( 'NONE', #152, #30, #16 ) ;
#68 = CALENDAR_DATE ( 2020, 22, 12 ) ;
#69 = COORDINATED_UNIVERSAL_TIME_OFFSET ( 8, 0, .AHEAD. ) ;
#70 = CALENDAR_DATE ( 2020, 22, 12 ) ;
#71 = PERSON_AND_ORGANIZATION ( #45, #84 ) ;
#72 = ADVANCED_FACE ( 'NONE', ( #92 ), #143, .T. ) ;
#73 = CC_DESIGN_PERSON_AND_ORGANIZATION_ASSIGNMENT ( #40, #24, ( #167 ) ) ;
#74 = AXIS2_PLACEMENT_3D ( 'NONE', #129, #65, #155 ) ;
#75 = AXIS2_PLACEMENT_3D ( 'NONE', #160, #139, #111 ) ;
#76 = CARTESIAN_POINT ( 'NONE',  ( -3.000000000000000000, 0.000000000000000000, 0.000000000000000000 ) ) ;
#77 = ORIENTED_EDGE ( 'NONE', *, *, #104, .F. ) ;
#78 = CARTESIAN_POINT ( 'NONE',  ( -1.614212418857619014, 0.000000000000000000, 15.00000000000000000 ) ) ;
#79 = EDGE_CURVE ( 'NONE', #60, #62, #145, .T. ) ;
#80 = CC_DESIGN_APPROVAL ( #55, ( #167 ) ) ;
#81 = FACE_OUTER_BOUND ( 'NONE', #156, .T. ) ;
#82 = CARTESIAN_POINT ( 'NONE',  ( 3.000000000000000000, 0.000000000000000000, 15.00000000000000000 ) ) ;
#83 = APPROVAL_ROLE ( '' ) ;
#84 = ORGANIZATION ( 'UNSPECIFIED', 'UNSPECIFIED', '' ) ;
#85 = APPROVAL_ROLE ( '' ) ;
#86 = APPROVAL_ROLE ( '' ) ;
#87 = CC_DESIGN_PERSON_AND_ORGANIZATION_ASSIGNMENT ( #98, #174, ( #89 ) ) ;
#88 = APPROVAL_PERSON_ORGANIZATION ( #136, #56, #83 ) ;
#89 = PRODUCT ( 'Q-AZHWP-25.4-1053-M', 'Q-AZHWP-25.4-1053-M', '', ( #125 ) ) ;
#90 = SHAPE_DEFINITION_REPRESENTATION ( #57, #93 ) ;
#91 = ORIENTED_EDGE ( 'NONE', *, *, #79, .F. ) ;
#92 = FACE_OUTER_BOUND ( 'NONE', #119, .T. ) ;
#93 = ADVANCED_BREP_SHAPE_REPRESENTATION ( 'Q-AZHWP-25.4-1053-M', ( #19, #75 ), #150 ) ;
#94 = ORIENTED_EDGE ( 'NONE', *, *, #95, .T. ) ;
#95 = EDGE_CURVE ( 'NONE', #60, #146, #102, .T. ) ;
#96 = CARTESIAN_POINT ( 'NONE',  ( -3.000000000000000000, 0.000000000000000000, 0.000000000000000000 ) ) ;
#97 = DIRECTION ( 'NONE',  ( -1.000000000000000000, -0.000000000000000000, -0.000000000000000000 ) ) ;
#98 = PERSON_AND_ORGANIZATION ( #45, #84 ) ;
#99 = DATE_AND_TIME ( #172, #158 ) ;
#100 = PERSON_AND_ORGANIZATION ( #45, #84 ) ;
#101 = DATE_AND_TIME ( #68, #35 ) ;
#102 = CIRCLE ( 'NONE', #163, 15.00000000000000000 ) ;
#103 = AXIS2_PLACEMENT_3D ( 'NONE', #121, #106, #5 ) ;
#104 = EDGE_CURVE ( 'NONE', #146, #47, #164, .T. ) ;
#105 = PLANE ( 'NONE',  #74 ) ;
#106 = DIRECTION ( 'NONE',  ( -1.000000000000000000, -0.000000000000000000, -0.000000000000000000 ) ) ;
#107 = AXIS2_PLACEMENT_3D ( 'NONE', #96, #110, #21 ) ;
#108 = PLANE ( 'NONE',  #126 ) ;
#109 = ORIENTED_EDGE ( 'NONE', *, *, #13, .T. ) ;
#110 = DIRECTION ( 'NONE',  ( -1.000000000000000000, -0.000000000000000000, -0.000000000000000000 ) ) ;
#111 = DIRECTION ( 'NONE',  ( 1.000000000000000000, 0.000000000000000000, 0.000000000000000000 ) ) ;
#112 = PERSON_AND_ORGANIZATION_ROLE ( 'design_supplier' ) ;
#113 = DATE_TIME_ROLE ( 'classification_date' ) ;
#114 = AXIS2_PLACEMENT_3D ( 'NONE', #76, #128, #4 ) ;
#115 = LOCAL_TIME ( 17, 9, 32.00000000000000000, #9 ) ;
#116 = APPLICATION_CONTEXT ( 'configuration controlled 3d designs of mechanical parts and assemblies' ) ;
#117 = DIRECTION ( 'NONE',  ( -1.000000000000000000, -0.000000000000000000, -0.000000000000000000 ) ) ;
#118 = ORIENTED_EDGE ( 'NONE', *, *, #153, .F. ) ;
#119 = EDGE_LOOP ( 'NONE', ( #94, #48, #32, #91 ) ) ;
#120 = CARTESIAN_POINT ( 'NONE',  ( -1.614212418857619014, 1.836970198721029589E-15, -15.00000000000000000 ) ) ;
#121 = CARTESIAN_POINT ( 'NONE',  ( -1.614212418857619014, 0.000000000000000000, 0.000000000000000000 ) ) ;
#122 = CLOSED_SHELL ( 'NONE', ( #72, #6, #36, #58 ) ) ;
#123 = PERSON_AND_ORGANIZATION_ROLE ( 'creator' ) ;
#124 =( LENGTH_UNIT ( ) NAMED_UNIT ( * ) SI_UNIT ( .MILLI., .METRE. ) );
#125 = MECHANICAL_CONTEXT ( 'NONE', #116, 'mechanical' ) ;
#126 = AXIS2_PLACEMENT_3D ( 'NONE', #169, #8, #154 ) ;
#127 = PERSON_AND_ORGANIZATION ( #45, #84 ) ;
#128 = DIRECTION ( 'NONE',  ( -1.000000000000000000, -0.000000000000000000, -0.000000000000000000 ) ) ;
#129 = CARTESIAN_POINT ( 'NONE',  ( 3.000000000000000888, 12.69999999999999929, 0.000000000000000000 ) ) ;
#130 = PRODUCT_RELATED_PRODUCT_CATEGORY ( 'detail', '', ( #89 ) ) ;
#131 = DIRECTION ( 'NONE',  ( -1.000000000000000000, -0.000000000000000000, -0.000000000000000000 ) ) ;
#132 = CYLINDRICAL_SURFACE ( 'NONE', #103, 15.00000000000000000 ) ;
#133 = DIRECTION ( 'NONE',  ( 0.000000000000000000, 0.000000000000000000, 1.000000000000000000 ) ) ;
#134 = VECTOR ( 'NONE', #131, 1000.000000000000000 ) ;
#135 = APPROVAL_DATE_TIME ( #101, #162 ) ;
#136 = PERSON_AND_ORGANIZATION ( #45, #84 ) ;
#137 = APPLICATION_PROTOCOL_DEFINITION ( 'international standard', 'config_control_design', 1994, #116 ) ;
#138 = PRODUCT_DEFINITION_FORMATION_WITH_SPECIFIED_SOURCE ( 'ANY', '', #89, .NOT_KNOWN. ) ;
#139 = DIRECTION ( 'NONE',  ( 0.000000000000000000, 0.000000000000000000, 1.000000000000000000 ) ) ;
#140 = CIRCLE ( 'NONE', #67, 15.00000000000000000 ) ;
#141 = ORIENTED_EDGE ( 'NONE', *, *, #95, .F. ) ;
#142 = APPROVAL_PERSON_ORGANIZATION ( #25, #55, #85 ) ;
#143 = CYLINDRICAL_SURFACE ( 'NONE', #14, 15.00000000000000000 ) ;
#144 = CC_DESIGN_DATE_AND_TIME_ASSIGNMENT ( #38, #66, ( #167 ) ) ;
#145 = LINE ( 'NONE', #78, #42 ) ;
#146 = VERTEX_POINT ( 'NONE', #43 ) ;
#147 = DIRECTION ( 'NONE',  ( 0.000000000000000000, 0.000000000000000000, 1.000000000000000000 ) ) ;
#148 = APPROVAL_STATUS ( 'not_yet_approved' ) ;
#149 = LOCAL_TIME ( 17, 9, 32.00000000000000000, #69 ) ;
#150 =( GEOMETRIC_REPRESENTATION_CONTEXT ( 3 ) GLOBAL_UNCERTAINTY_ASSIGNED_CONTEXT ( ( #2 ) ) GLOBAL_UNIT_ASSIGNED_CONTEXT ( ( #124, #49, #52 ) ) REPRESENTATION_CONTEXT ( 'NONE', 'WORKASPACE' ) );
#151 = CC_DESIGN_DATE_AND_TIME_ASSIGNMENT ( #99, #113, ( #59 ) ) ;
#152 = CARTESIAN_POINT ( 'NONE',  ( 3.000000000000000000, 0.000000000000000000, 0.000000000000000000 ) ) ;
#153 = EDGE_CURVE ( 'NONE', #146, #60, #140, .T. ) ;
#154 = DIRECTION ( 'NONE',  ( 0.000000000000000000, 0.000000000000000000, -1.000000000000000000 ) ) ;
#155 = DIRECTION ( 'NONE',  ( -0.000000000000000000, 0.000000000000000000, 1.000000000000000000 ) ) ;
#156 = EDGE_LOOP ( 'NONE', ( #77, #44, #23, #20 ) ) ;
#157 = CARTESIAN_POINT ( 'NONE',  ( -3.000000000000000000, 0.000000000000000000, 15.00000000000000000 ) ) ;
#158 = LOCAL_TIME ( 17, 9, 32.00000000000000000, #11 ) ;
#159 = COORDINATED_UNIVERSAL_TIME_OFFSET ( 8, 0, .AHEAD. ) ;
#160 = CARTESIAN_POINT ( 'NONE',  ( 0.000000000000000000, 0.000000000000000000, 0.000000000000000000 ) ) ;
#161 = PERSON_AND_ORGANIZATION_ROLE ( 'classification_officer' ) ;
#162 = APPROVAL ( #53, 'UNSPECIFIED' ) ;
#163 = AXIS2_PLACEMENT_3D ( 'NONE', #64, #117, #147 ) ;
#164 = LINE ( 'NONE', #120, #134 ) ;
#165 = EDGE_LOOP ( 'NONE', ( #109, #168 ) ) ;
#166 = CARTESIAN_POINT ( 'NONE',  ( -3.000000000000000000, 1.836970198721029589E-15, -15.00000000000000000 ) ) ;
#167 = PRODUCT_DEFINITION ( 'UNKNOWN', '', #138, #33 ) ;
#168 = ORIENTED_EDGE ( 'NONE', *, *, #175, .T. ) ;
#169 = CARTESIAN_POINT ( 'NONE',  ( -3.000000000000000888, 12.69999999999999929, 0.000000000000000000 ) ) ;
#170 = CC_DESIGN_APPROVAL ( #56, ( #59 ) ) ;
#171 = SECURITY_CLASSIFICATION_LEVEL ( 'unclassified' ) ;
#172 = CALENDAR_DATE ( 2020, 22, 12 ) ;
#173 = APPROVAL_DATE_TIME ( #27, #55 ) ;
#174 = PERSON_AND_ORGANIZATION_ROLE ( 'design_owner' ) ;
#175 = EDGE_CURVE ( 'NONE', #47, #62, #10, .T. ) ;
ENDSEC;
END-ISO-10303-21;
